Dystopia
Приветствую всех!
Уже давно пытаюсь подобрать перебор "Почти реально"
аккорды которые лежат повсеместно в интернете не верные
перебор начинается с аккорда Bm
вот вступление:
E||---------------------------|--------------------------|
B||---------------3-----------|--------------3-----------|
G||*--------4-----------4-----|--------4-----------4-----|
D||*-----4-----4-----4-----4--|-----4-----4-----4-----4--|
A||---2-----------------------|--2-----------------------|
E||---------------------------|--------------------------|


--------------------------|---------------------------||
--------0-----0-----0-----|---------------------------||
-----3-----3-----3-----3--|--------3-----3-----3-----*||
--2-----------------------|-----2-----2-----2-----2--*||
--------------------------|--4------------------------||
--------------------------|---------------------------||


---------------------------|--------------------------|
---------------0-----------|--0-----------7-----0-----|
*--------6-----------6-----|--------------------------|
*-----4-----4-----4-----4--|-----4-----4-----4-----4--|
---5-----------------------|--------5-----------------|
---------------------------|--------------------------|


--------------------------|---------------------------||
--------0-----0-----0-----|---------------------------||
-----3-----3-----3-----3--|--------3-----3-----3-----*||
--2-----------------------|-----2-----2-----2-----2--*||
--------------------------|--4------------------------||
--------------------------|---------------------------||

если кто знает продолжение буду очень благодарен :-)

@музыка: Почти реально

@темы: аккорды, табулатура